  0
SECTION
  2
HEADER
  9
$ACADVER
  1
AC1015
  9
$ACADMAINTVER
 70
     6
  9
$DWGCODEPAGE
  3
ANSI_1254
  9
$INSBASE
 10
0.0
 20
0.0
 30
0.0
  9
$EXTMIN
 10
0.0
 20
0.0
 30
0.0
  9
$EXTMAX
 10
279.4
 20
215.9
 30
0.0
  9
$LIMMIN
 10
0.0
 20
0.0
  9
$LIMMAX
 10
279.4
 20
215.9
  9
$ORTHOMODE
 70
     0
  9
$REGENMODE
 70
     1
  9
$FILLMODE
 70
     1
  9
$QTEXTMODE
 70
     0
  9
$MIRRTEXT
 70
     1
  9
$LTSCALE
 40
1.0
  9
$ATTMODE
 70
     1
  9
$TEXTSIZE
 40
3.5
  9
$TRACEWID
 40
1.0
  9
$TEXTSTYLE
  7
Standard
  9
$CLAYER
  8
0
  9
$CELTYPE
  6
ByLayer
  9
$CECOLOR
 62
   256
  9
$CELTSCALE
 40
1.0
  9
$DISPSILH
 70
     0
  9
$DIMSCALE
 40
1.0
  9
$DIMASZ
 40
3.5
  9
$DIMEXO
 40
1.0
  9
$DIMDLI
 40
3.75
  9
$DIMRND
 40
0.0
  9
$DIMDLE
 40
0.0
  9
$DIMEXE
 40
1.0
  9
$DIMTP
 40
0.0
  9
$DIMTM
 40
0.0
  9
$DIMTXT
 40
3.5
  9
$DIMCEN
 40
2.5
  9
$DIMTSZ
 40
0.0
  9
$DIMTOL
 70
     0
  9
$DIMLIM
 70
     0
  9
$DIMTIH
 70
     1
  9
$DIMTOH
 70
     1
  9
$DIMSE1
 70
     0
  9
$DIMSE2
 70
     0
  9
$DIMTAD
 70
     1
  9
$DIMZIN
 70
     0
  9
$DIMBLK
  1

  9
$DIMASO
 70
     1
  9
$DIMSHO
 70
     1
  9
$DIMPOST
  1

  9
$DIMAPOST
  1

  9
$DIMALT
 70
     0
  9
$DIMALTD
 70
     3
  9
$DIMALTF
 40
0.0393700787
  9
$DIMLFAC
 40
1.0
  9
$DIMTOFL
 70
     1
  9
$DIMTVP
 40
0.0
  9
$DIMTIX
 70
     0
  9
$DIMSOXD
 70
     0
  9
$DIMSAH
 70
     0
  9
$DIMBLK1
  1

  9
$DIMBLK2
  1

  9
$DIMSTYLE
  2
ISO-25
  9
$DIMCLRD
 70
     0
  9
$DIMCLRE
 70
     0
  9
$DIMCLRT
 70
     0
  9
$DIMTFAC
 40
1.0
  9
$DIMGAP
 40
1.524
  9
$DIMJUST
 70
     0
  9
$DIMSD1
 70
     0
  9
$DIMSD2
 70
     0
  9
$DIMTOLJ
 70
     0
  9
$DIMTZIN
 70
     0
  9
$DIMALTZ
 70
     0
  9
$DIMALTTZ
 70
     0
  9
$DIMUPT
 70
     0
  9
$DIMDEC
 70
     2
  9
$DIMTDEC
 70
     2
  9
$DIMALTU
 70
     2
  9
$DIMALTTD
 70
     3
  9
$DIMTXSTY
  7
Standard
  9
$DIMAUNIT
 70
     0
  9
$DIMADEC
 70
     2
  9
$DIMALTRND
 40
0.0
  9
$DIMAZIN
 70
     0
  9
$DIMDSEP
 70
    44
  9
$DIMATFIT
 70
     3
  9
$DIMFRAC
 70
     0
  9
$DIMLDRBLK
  1

  9
$DIMLUNIT
 70
     2
  9
$DIMLWD
 70
    -2
  9
$DIMLWE
 70
    -2
  9
$DIMTMOVE
 70
     0
  9
$LUNITS
 70
     2
  9
$LUPREC
 70
     2
  9
$SKETCHINC
 40
1.0
  9
$FILLETRAD
 40
10.0
  9
$AUNITS
 70
     0
  9
$AUPREC
 70
     2
  9
$MENU
  1
.
  9
$ELEVATION
 40
0.0
  9
$PELEVATION
 40
0.0
  9
$THICKNESS
 40
0.0
  9
$LIMCHECK
 70
     0
  9
$CHAMFERA
 40
0.0
  9
$CHAMFERB
 40
0.0
  9
$CHAMFERC
 40
0.0
  9
$CHAMFERD
 40
0.0
  9
$SKPOLY
 70
     0
  9
$TDCREATE
 40
2458985.654387442
  9
$TDUCREATE
 40
2458985.529387442
  9
$TDUPDATE
 40
2458985.654387708
  9
$TDUUPDATE
 40
2458985.529387708
  9
$TDINDWG
 40
0.0000000116
  9
$TDUSRTIMER
 40
0.0000000116
  9
$USRTIMER
 70
     1
  9
$ANGBASE
 50
0.0
  9
$ANGDIR
 70
     0
  9
$PDMODE
 70
     0
  9
$PDSIZE
 40
-1.0
  9
$PLINEWID
 40
0.0
  9
$SPLFRAME
 70
     0
  9
$SPLINETYPE
 70
     6
  9
$SPLINESEGS
 70
     8
  9
$HANDSEED
  5
CC
  9
$SURFTAB1
 70
     6
  9
$SURFTAB2
 70
     6
  9
$SURFTYPE
 70
     6
  9
$SURFU
 70
     6
  9
$SURFV
 70
     6
  9
$UCSBASE
  2

  9
$UCSNAME
  2

  9
$UCSORG
 10
0.0
 20
0.0
 30
0.0
  9
$UCSXDIR
 10
1.0
 20
0.0
 30
0.0
  9
$UCSYDIR
 10
0.0
 20
1.0
 30
0.0
  9
$UCSORTHOREF
  2

  9
$UCSORTHOVIEW
 70
     0
  9
$UCSORGTOP
 10
0.0
 20
0.0
 30
0.0
  9
$UCSORGBOTTOM
 10
0.0
 20
0.0
 30
0.0
  9
$UCSORGLEFT
 10
0.0
 20
0.0
 30
0.0
  9
$UCSORGRIGHT
 10
0.0
 20
0.0
 30
0.0
  9
$UCSORGFRONT
 10
0.0
 20
0.0
 30
0.0
  9
$UCSORGBACK
 10
0.0
 20
0.0
 30
0.0
  9
$PUCSBASE
  2

  9
$PUCSNAME
  2

  9
$PUCSORG
 10
0.0
 20
0.0
 30
0.0
  9
$PUCSXDIR
 10
1.0
 20
0.0
 30
0.0
  9
$PUCSYDIR
 10
0.0
 20
1.0
 30
0.0
  9
$PUCSORTHOREF
  2

  9
$PUCSORTHOVIEW
 70
     0
  9
$PUCSORGTOP
 10
0.0
 20
0.0
 30
0.0
  9
$PUCSORGBOTTOM
 10
0.0
 20
0.0
 30
0.0
  9
$PUCSORGLEFT
 10
0.0
 20
0.0
 30
0.0
  9
$PUCSORGRIGHT
 10
0.0
 20
0.0
 30
0.0
  9
$PUCSORGFRONT
 10
0.0
 20
0.0
 30
0.0
  9
$PUCSORGBACK
 10
0.0
 20
0.0
 30
0.0
  9
$USERI1
 70
     0
  9
$USERI2
 70
     0
  9
$USERI3
 70
     0
  9
$USERI4
 70
     0
  9
$USERI5
 70
     0
  9
$USERR1
 40
0.0
  9
$USERR2
 40
0.0
  9
$USERR3
 40
0.0
  9
$USERR4
 40
0.0
  9
$USERR5
 40
0.0
  9
$WORLDVIEW
 70
     1
  9
$SHADEDGE
 70
     3
  9
$SHADEDIF
 70
    70
  9
$TILEMODE
 70
     1
  9
$MAXACTVP
 70
    64
  9
$PINSBASE
 10
0.0
 20
0.0
 30
0.0
  9
$PLIMCHECK
 70
     0
  9
$PEXTMIN
 10
1.0000000000E+20
 20
1.0000000000E+20
 30
1.0000000000E+20
  9
$PEXTMAX
 10
-1.0000000000E+20
 20
-1.0000000000E+20
 30
-1.0000000000E+20
  9
$PLIMMIN
 10
0.0
 20
0.0
  9
$PLIMMAX
 10
420.0
 20
297.0
  9
$UNITMODE
 70
     0
  9
$VISRETAIN
 70
     1
  9
$PLINEGEN
 70
     0
  9
$PSLTSCALE
 70
     1
  9
$TREEDEPTH
 70
  3020
  9
$CMLSTYLE
  2
Standard
  9
$CMLJUST
 70
     0
  9
$CMLSCALE
 40
20.0
  9
$PROXYGRAPHICS
 70
     1
  9
$MEASUREMENT
 70
     1
  9
$CELWEIGHT
370
    -1
  9
$ENDCAPS
280
     0
  9
$JOINSTYLE
280
     0
  9
$LWDISPLAY
290
     1
  9
$INSUNITS
 70
     4
  9
$HYPERLINKBASE
  1

  9
$STYLESHEET
  1

  9
$XEDIT
290
     1
  9
$CEPSNTYPE
380
     0
  9
$PSTYLEMODE
290
     1
  9
$FINGERPRINTGUID
  2
{8f1004ca-ee0b-4da5-994e-4db94484de12}
  9
$VERSIONGUID
  2
{FAEB1C32-E019-11D5-929B-00C0DF256EC4}
  9
$EXTNAMES
290
     1
  9
$PSVPSCALE
 40
0.0
  9
$OLESTARTUP
290
     0
  0
ENDSEC
  0
SECTION
  2
CLASSES
  0
CLASS
  1
ACDBDICTIONARYWDFLT
  2
AcDbDictionaryWithDefault
  3
ObjectDBX Classes
 90
        0
280
     0
281
     0
  0
CLASS
  1
VISUALSTYLE
  2
AcDbVisualStyle
  3
ObjectDBX Classes
 90
     4095
280
     0
281
     0
  0
CLASS
  1
MATERIAL
  2
AcDbMaterial
  3
ObjectDBX Classes
 90
     1153
280
     0
281
     0
  0
CLASS
  1
SCALE
  2
AcDbScale
  3
ObjectDBX Classes
 90
     1153
280
     0
281
     0
  0
CLASS
  1
TABLESTYLE
  2
AcDbTableStyle
  3
ObjectDBX Classes
 90
     4095
280
     0
281
     0
  0
CLASS
  1
MLEADERSTYLE
  2
AcDbMLeaderStyle
  3
ACDB_MLEADERSTYLE_CLASS
 90
     4095
280
     0
281
     0
  0
CLASS
  1
SUN
  2
AcDbSun
  3
SCENEOE
 90
     1153
280
     0
281
     0
  0
CLASS
  1
ACDBPLACEHOLDER
  2
AcDbPlaceHolder
  3
ObjectDBX Classes
 90
        0
280
     0
281
     0
  0
CLASS
  1
LAYOUT
  2
AcDbLayout
  3
ObjectDBX Classes
 90
        0
280
     0
281
     0
  0
ENDSEC
  0
SECTION
  2
TABLES
  0
TABLE
  2
VPORT
  5
8
330
0
100
AcDbSymbolTable
 70
     1
  0
VPORT
  5
29
330
8
100
AcDbSymbolTableRecord
100
AcDbViewportTableRecord
  2
*Active
 70
     0
 10
0.0
 20
0.0
 11
1.0
 21
1.0
 12
139.7
 22
107.95
 13
0.0
 23
0.0
 14
10.0
 24
10.0
 15
10.0
 25
10.0
 16
0.0
 26
0.0
 36
1.0
 17
0.0
 27
0.0
 37
0.0
 40
215.9
 41
1.2941176471
 42
50.0
 43
0.0
 44
0.0
 50
0.0
 51
0.0
 71
     0
 72
  2000
 73
     1
 74
     3
 75
     0
 76
     0
 77
     0
 78
     0
281
     0
 65
     1
110
0.0
120
0.0
130
0.0
111
1.0
121
0.0
131
0.0
112
0.0
122
1.0
132
0.0
 79
     0
146
0.0
  0
ENDTAB
  0
TABLE
  2
LTYPE
  5
5
330
0
100
AcDbSymbolTable
 70
     6
  0
LTYPE
  5
14
330
5
100
AcDbSymbolTableRecord
100
AcDbLinetypeTableRecord
  2
ByBlock
 70
     0
  3

 72
    65
 73
     0
 40
0.0
  0
LTYPE
  5
15
330
5
100
AcDbSymbolTableRecord
100
AcDbLinetypeTableRecord
  2
ByLayer
 70
     0
  3

 72
    65
 73
     0
 40
0.0
  0
LTYPE
  5
16
330
5
100
AcDbSymbolTableRecord
100
AcDbLinetypeTableRecord
  2
Continuous
 70
     0
  3
Solid line
 72
    65
 73
     0
 40
0.0
  0
LTYPE
  5
6E
330
5
100
AcDbSymbolTableRecord
100
AcDbLinetypeTableRecord
  2
HIDDEN
 70
     0
  3
Hidden __ __ __ __ __ __ __ __ __ __ __ __ __ __
 72
    65
 73
     2
 40
1.905
 49
1.27
 74
     0
 49
-0.635
 74
     0
  0
LTYPE
  5
6F
330
5
100
AcDbSymbolTableRecord
100
AcDbLinetypeTableRecord
  2
PHANTOM
 70
     0
  3
Phantom ______  __  __  ______  __  __  ______
 72
    65
 73
     6
 40
12.7
 49
6.35
 74
     0
 49
-1.27
 74
     0
 49
1.27
 74
     0
 49
-1.27
 74
     0
 49
1.27
 74
     0
 49
-1.27
 74
     0
  0
LTYPE
  5
70
330
5
100
AcDbSymbolTableRecord
100
AcDbLinetypeTableRecord
  2
CENTER
 70
     0
  3
Center ____ _ ____ _ ____ _ ____ _ ____ _ ____
 72
    65
 73
     4
 40
10.16
 49
6.35
 74
     0
 49
-1.27
 74
     0
 49
1.27
 74
     0
 49
-1.27
 74
     0
  0
LTYPE
  5
71
330
5
100
AcDbSymbolTableRecord
100
AcDbLinetypeTableRecord
  2
CENTERX2
 70
     0
  3
Center (2x) ________  __  ________  __  _____
 72
    65
 73
     4
 40
20.32
 49
12.7
 74
     0
 49
-2.54
 74
     0
 49
2.54
 74
     0
 49
-2.54
 74
     0
  0
LTYPE
  5
72
330
5
100
AcDbSymbolTableRecord
100
AcDbLinetypeTableRecord
  2
DOT2
 70
     0
  3
Dot (.5x) ........................................
 72
    65
 73
     2
 40
0.635
 49
0.0
 74
     0
 49
-0.635
 74
     0
  0
ENDTAB
  0
TABLE
  2
LAYER
  5
2
330
0
100
AcDbSymbolTable
 70
    17
  0
LAYER
  5
10
330
2
100
AcDbSymbolTableRecord
100
AcDbLayerTableRecord
  2
0
 70
     0
 62
     7
  6
Continuous
370
    -3
390
F
  0
LAYER
  5
73
330
2
100
AcDbSymbolTableRecord
100
AcDbLayerTableRecord
  2
FORMAT
 70
     0
 62
     7
  6
Continuous
370
    -3
390
F
  0
LAYER
  5
74
330
2
100
AcDbSymbolTableRecord
100
AcDbLayerTableRecord
  2
YARDIMCI_GEOMETRI
 70
     0
 62
    -6
  6
Continuous
290
     0
370
    -3
390
F
  0
LAYER
  5
75
330
2
100
AcDbSymbolTableRecord
100
AcDbLayerTableRecord
  2
SAYFA_CERCEVESI
 70
     0
 62
     7
  6
Continuous
370
    25
390
F
  0
LAYER
  5
76
330
2
100
AcDbSymbolTableRecord
100
AcDbLayerTableRecord
  2
ANTET
 70
     0
 62
     7
  6
Continuous
370
    -3
390
F
  0
LAYER
  5
77
330
2
100
AcDbSymbolTableRecord
100
AcDbLayerTableRecord
  2
OLCU
 70
     0
 62
   150
  6
Continuous
370
    -3
390
F
  0
LAYER
  5
78
330
2
100
AcDbSymbolTableRecord
100
AcDbLayerTableRecord
  2
METIN
 70
     0
 62
    96
  6
Continuous
370
    -3
390
F
  0
LAYER
  5
79
330
2
100
AcDbSymbolTableRecord
100
AcDbLayerTableRecord
  2
BALON
 70
     0
 62
     5
  6
Continuous
370
    -3
390
F
  0
LAYER
  5
7A
330
2
100
AcDbSymbolTableRecord
100
AcDbLayerTableRecord
  2
VURGU
 70
     0
 62
     7
  6
Continuous
370
    -3
390
F
  0
LAYER
  5
7B
330
2
100
AcDbSymbolTableRecord
100
AcDbLayerTableRecord
  2
SILIK
 70
     0
 62
     7
  6
Continuous
370
    -3
390
F
  0
LAYER
  5
7C
330
2
100
AcDbSymbolTableRecord
100
AcDbLayerTableRecord
  2
MODEL
 70
     0
 62
     7
  6
Continuous
370
    -3
390
F
  0
LAYER
  5
7D
330
2
100
AcDbSymbolTableRecord
100
AcDbLayerTableRecord
  2
DETAYLANDıRMA
 70
     0
 62
   190
  6
Continuous
370
    -3
390
F
  0
LAYER
  5
7E
330
2
100
AcDbSymbolTableRecord
100
AcDbLayerTableRecord
  2
TOLERANS
 70
     0
 62
   230
  6
Continuous
370
    -3
390
F
  0
LAYER
  5
7F
330
2
100
AcDbSymbolTableRecord
100
AcDbLayerTableRecord
  2
MERKEZ_CIZGILERI
 70
     0
 62
    30
  6
Continuous
370
    -3
390
F
  0
LAYER
  5
80
330
2
100
AcDbSymbolTableRecord
100
AcDbLayerTableRecord
  2
KESIT-DETAY_CIZGILERI
 70
     0
 62
     7
  6
Continuous
370
    -3
390
F
  0
LAYER
  5
81
330
2
100
AcDbSymbolTableRecord
100
AcDbLayerTableRecord
  2
\U+041E\U+0421\U+0415\U+0412\U+042B\U+0415
 70
     0
 62
     7
  6
Continuous
370
    -3
390
F
  0
LAYER
  5
82
330
2
100
AcDbSymbolTableRecord
100
AcDbLayerTableRecord
  2
\U+0412\U+041E\U+0414\U+042F\U+041D\U+042B\U+0415_\U+0417\U+041D\U+0410\U+041A\U+0418
 70
     0
 62
    11
  6
Continuous
370
    -3
390
F
  0
ENDTAB
  0
TABLE
  2
STYLE
  5
3
330
0
100
AcDbSymbolTable
 70
     1
  0
STYLE
  5
11
330
3
100
AcDbSymbolTableRecord
100
AcDbTextStyleTableRecord
  2
Standard
 70
     0
 40
0.0
 41
1.0
 50
0.0
 71
     0
 42
3.5
  3
txt
  4

  0
ENDTAB
  0
TABLE
  2
VIEW
  5
6
330
0
100
AcDbSymbolTable
 70
     0
  0
ENDTAB
  0
TABLE
  2
UCS
  5
7
330
0
100
AcDbSymbolTable
 70
     0
  0
ENDTAB
  0
TABLE
  2
APPID
  5
9
330
0
100
AcDbSymbolTable
 70
     1
  0
APPID
  5
12
330
9
100
AcDbSymbolTableRecord
100
AcDbRegAppTableRecord
  2
ACAD
 70
     0
  0
ENDTAB
  0
TABLE
  2
DIMSTYLE
  5
A
330
0
100
AcDbSymbolTable
 70
     1
100
AcDbDimStyleTable
  0
DIMSTYLE
105
27
330
A
100
AcDbSymbolTableRecord
100
AcDbDimStyleTableRecord
  2
ISO-25
 70
     0
 41
2.5
 42
0.625
 43
3.75
 44
1.25
 73
     0
 74
     0
 77
     1
 78
     8
140
2.5
141
2.5
143
0.0393700787
147
0.625
171
     3
172
     1
178
     0
271
     2
272
     2
274
     3
278
    44
283
     0
284
     8
340
11
  0
ENDTAB
  0
TABLE
  2
BLOCK_RECORD
  5
1
330
0
100
AcDbSymbolTable
 70
     2
  0
BLOCK_RECORD
  5
1F
330
1
100
AcDbSymbolTableRecord
100
AcDbBlockTableRecord
  2
*Model_Space
340
22
  0
BLOCK_RECORD
  5
1B
330
1
100
AcDbSymbolTableRecord
100
AcDbBlockTableRecord
  2
*Paper_Space
340
1E
  0
BLOCK_RECORD
  5
23
330
1
100
AcDbSymbolTableRecord
100
AcDbBlockTableRecord
  2
*Paper_Space0
340
26
  0
BLOCK_RECORD
  5
87
330
1
100
AcDbSymbolTableRecord
100
AcDbBlockTableRecord
  2
SW_CENTERMARKSYMBOL_0
340
0
102
{BLKREFS
331
92
102
}
  0
ENDTAB
  0
ENDSEC
  0
SECTION
  2
BLOCKS
  0
BLOCK
  5
20
330
1F
100
AcDbEntity
  8
0
100
AcDbBlockBegin
  2
*Model_Space
 70
     0
 10
0.0
 20
0.0
 30
0.0
  3
*Model_Space
  1

  0
ENDBLK
  5
21
330
1F
100
AcDbEntity
  8
0
100
AcDbBlockEnd
  0
BLOCK
  5
1C
330
1B
100
AcDbEntity
 67
     1
  8
0
100
AcDbBlockBegin
  2
*Paper_Space
 70
     0
 10
0.0
 20
0.0
 30
0.0
  3
*Paper_Space
  1

  0
ENDBLK
  5
1D
330
1B
100
AcDbEntity
 67
     1
  8
0
100
AcDbBlockEnd
  0
BLOCK
  5
24
330
23
100
AcDbEntity
  8
0
100
AcDbBlockBegin
  2
*Paper_Space0
 70
     0
 10
0.0
 20
0.0
 30
0.0
  3
*Paper_Space0
  1

  0
ENDBLK
  5
25
330
23
100
AcDbEntity
  8
0
100
AcDbBlockEnd
  0
BLOCK
  5
88
330
87
100
AcDbEntity
  8
0
100
AcDbBlockBegin
  2
SW_CENTERMARKSYMBOL_0
 70
     0
 10
0.0
 20
0.0
 30
0.0
  3
SW_CENTERMARKSYMBOL_0
  1

  0
LINE
  5
8A
330
87
100
AcDbEntity
  8
FORMAT
 62
     0
100
AcDbLine
 10
0.0
 20
0.0
 30
0.0
 11
0.0
 21
2.5
 31
0.0
  0
LINE
  5
8B
330
87
100
AcDbEntity
  8
FORMAT
 62
     0
100
AcDbLine
 10
0.0
 20
0.0
 30
0.0
 11
-2.5
 21
0.0
 31
0.0
  0
LINE
  5
8C
330
87
100
AcDbEntity
  8
FORMAT
 62
     0
100
AcDbLine
 10
0.0
 20
0.0
 30
0.0
 11
0.0
 21
-2.5
 31
0.0
  0
LINE
  5
8D
330
87
100
AcDbEntity
  8
FORMAT
 62
     0
100
AcDbLine
 10
0.0
 20
0.0
 30
0.0
 11
2.5
 21
0.0
 31
0.0
  0
LINE
  5
8E
330
87
100
AcDbEntity
  8
FORMAT
 62
     0
100
AcDbLine
 10
0.0
 20
5.0
 30
0.0
 11
0.0
 21
52.5
 31
0.0
  0
LINE
  5
8F
330
87
100
AcDbEntity
  8
FORMAT
 62
     0
100
AcDbLine
 10
-5.0
 20
0.0
 30
0.0
 11
-52.5
 21
0.0
 31
0.0
  0
LINE
  5
90
330
87
100
AcDbEntity
  8
FORMAT
 62
     0
100
AcDbLine
 10
0.0
 20
-5.0
 30
0.0
 11
0.0
 21
-52.5
 31
0.0
  0
LINE
  5
91
330
87
100
AcDbEntity
  8
FORMAT
 62
     0
100
AcDbLine
 10
5.0
 20
0.0
 30
0.0
 11
52.5
 21
0.0
 31
0.0
  0
ENDBLK
  5
89
330
87
100
AcDbEntity
  8
0
100
AcDbBlockEnd
  0
ENDSEC
  0
SECTION
  2
ENTITIES
  0
CIRCLE
  5
83
330
1F
100
AcDbEntity
  8
0
  6
Continuous
 62
     7
370
    25
100
AcDbCircle
 10
142.9934680851
 20
119.1714893617
 30
0.0
 40
31.49999999999999
  0
CIRCLE
  5
84
330
1F
100
AcDbEntity
  8
0
  6
Continuous
 62
     7
370
    25
100
AcDbCircle
 10
142.9934680851
 20
119.1714893617
 30
0.0
 40
27.69999999999999
  0
CIRCLE
  5
85
330
1F
100
AcDbEntity
  8
0
  6
Continuous
 62
     7
370
    25
100
AcDbCircle
 10
142.9934680851
 20
119.1714893617
 30
0.0
 40
39.0
  0
CIRCLE
  5
86
330
1F
100
AcDbEntity
  8
0
  6
Continuous
 62
     7
370
    25
100
AcDbCircle
 10
142.9934680851
 20
119.1714893617
 30
0.0
 40
50.0
  0
INSERT
  5
92
330
1F
100
AcDbEntity
  8
FORMAT
 62
     7
100
AcDbBlockReference
  2
SW_CENTERMARKSYMBOL_0
 10
142.9934680851
 20
119.1714893617
 30
0.0
  0
LINE
  5
93
330
1F
100
AcDbEntity
  8
0
  6
Continuous
 62
     7
370
    25
100
AcDbLine
 10
192.9934680851
 20
200.57439065
 30
0.0
 11
192.9934680851
 21
214.57439065
 31
0.0
  0
LINE
  5
94
330
1F
100
AcDbEntity
  8
0
  6
Continuous
 62
     7
370
    25
100
AcDbLine
 10
92.9934680851
 20
214.57439065
 30
0.0
 11
92.9934680851
 21
200.57439065
 31
0.0
  0
LINE
  5
95
330
1F
100
AcDbEntity
  8
0
  6
Continuous
 62
     7
370
    25
100
AcDbLine
 10
181.9934680851
 20
214.57439065
 30
0.0
 11
174.4934680851
 21
232.57439065
 31
0.0
  0
LINE
  5
96
330
1F
100
AcDbEntity
  8
0
  6
Continuous
 62
     7
370
    25
100
AcDbLine
 10
111.4934680851
 20
232.57439065
 30
0.0
 11
103.9934680851
 21
214.57439065
 31
0.0
  0
LINE
  5
97
330
1F
100
AcDbEntity
  8
0
  6
Continuous
 62
     7
370
    25
100
AcDbLine
 10
174.4934680851
 20
232.57439065
 30
0.0
 11
174.4934680851
 21
320.57439065
 31
0.0
  0
LINE
  5
98
330
1F
100
AcDbEntity
  8
0
  6
Continuous
 62
     7
370
    25
100
AcDbLine
 10
111.4934680851
 20
320.57439065
 30
0.0
 11
111.4934680851
 21
232.57439065
 31
0.0
  0
LINE
  5
99
330
1F
100
AcDbEntity
  8
0
  6
Continuous
 62
     7
370
    25
100
AcDbLine
 10
192.9934680851
 20
200.57439065
 30
0.0
 11
92.9934680851
 21
200.57439065
 31
0.0
  0
LINE
  5
9A
330
1F
100
AcDbEntity
  8
0
  6
Continuous
 62
     7
370
    25
100
AcDbLine
 10
192.9934680851
 20
214.57439065
 30
0.0
 11
92.9934680851
 21
214.57439065
 31
0.0
  0
LINE
  5
9B
330
1F
100
AcDbEntity
  8
0
  6
Continuous
 62
     7
370
    25
100
AcDbLine
 10
174.4934680851
 20
232.57439065
 30
0.0
 11
111.4934680851
 21
232.57439065
 31
0.0
  0
LINE
  5
9C
330
1F
100
AcDbEntity
  8
0
  6
Continuous
 62
     7
370
    25
100
AcDbLine
 10
174.4934680851
 20
320.57439065
 30
0.0
 11
111.4934680851
 21
320.57439065
 31
0.0
  0
LINE
  5
9D
330
1F
100
AcDbEntity
  8
0
  6
Continuous
 62
     7
370
    25
100
AcDbLine
 10
32.5555460918
 20
169.1714893617
 30
0.0
 11
18.5555460918
 21
169.1714893617
 31
0.0
  0
LINE
  5
9E
330
1F
100
AcDbEntity
  8
0
  6
Continuous
 62
     7
370
    25
100
AcDbLine
 10
18.5555460918
 20
69.1714893617
 30
0.0
 11
32.5555460918
 21
69.1714893617
 31
0.0
  0
LINE
  5
9F
330
1F
100
AcDbEntity
  8
0
  6
Continuous
 62
     7
370
    25
100
AcDbLine
 10
18.5555460918
 20
158.1714893617
 30
0.0
 11
0.5555460918
 21
150.6714893617
 31
0.0
  0
LINE
  5
A0
330
1F
100
AcDbEntity
  8
0
  6
Continuous
 62
     7
370
    25
100
AcDbLine
 10
0.5555460918
 20
87.6714893617
 30
0.0
 11
18.5555460918
 21
80.1714893617
 31
0.0
  0
LINE
  5
A1
330
1F
100
AcDbEntity
  8
0
  6
Continuous
 62
     7
370
    25
100
AcDbLine
 10
0.5555460918
 20
150.6714893617
 30
0.0
 11
-87.4444539082
 21
150.6714893617
 31
0.0
  0
LINE
  5
A2
330
1F
100
AcDbEntity
  8
0
  6
Continuous
 62
     7
370
    25
100
AcDbLine
 10
-87.4444539082
 20
87.6714893617
 30
0.0
 11
0.5555460918
 21
87.6714893617
 31
0.0
  0
LINE
  5
A3
330
1F
100
AcDbEntity
  8
0
  6
Continuous
 62
     7
370
    25
100
AcDbLine
 10
32.5555460918
 20
169.1714893617
 30
0.0
 11
32.5555460918
 21
69.1714893617
 31
0.0
  0
LINE
  5
A4
330
1F
100
AcDbEntity
  8
0
  6
Continuous
 62
     7
370
    25
100
AcDbLine
 10
18.5555460918
 20
169.1714893617
 30
0.0
 11
18.5555460918
 21
69.1714893617
 31
0.0
  0
LINE
  5
A5
330
1F
100
AcDbEntity
  8
0
  6
Continuous
 62
     7
370
    25
100
AcDbLine
 10
0.5555460918
 20
150.6714893617
 30
0.0
 11
0.5555460918
 21
87.6714893617
 31
0.0
  0
LINE
  5
A6
330
1F
100
AcDbEntity
  8
0
  6
Continuous
 62
     7
370
    25
100
AcDbLine
 10
-87.4444539082
 20
150.6714893617
 30
0.0
 11
-87.4444539082
 21
87.6714893617
 31
0.0
  0
LINE
  5
A7
330
1F
100
AcDbEntity
  8
0
  6
Continuous
 62
     7
370
    25
100
AcDbLine
 10
243.3053345646
 20
69.1714893617
 30
0.0
 11
257.3053345646
 21
69.1714893617
 31
0.0
  0
LINE
  5
A8
330
1F
100
AcDbEntity
  8
0
  6
Continuous
 62
     7
370
    25
100
AcDbLine
 10
257.3053345646
 20
169.1714893617
 30
0.0
 11
243.3053345646
 21
169.1714893617
 31
0.0
  0
LINE
  5
A9
330
1F
100
AcDbEntity
  8
0
  6
Continuous
 62
     7
370
    25
100
AcDbLine
 10
257.3053345646
 20
80.1714893617
 30
0.0
 11
275.3053345646
 21
87.6714893617
 31
0.0
  0
LINE
  5
AA
330
1F
100
AcDbEntity
  8
0
  6
Continuous
 62
     7
370
    25
100
AcDbLine
 10
275.3053345646
 20
150.6714893617
 30
0.0
 11
257.3053345646
 21
158.1714893617
 31
0.0
  0
LINE
  5
AB
330
1F
100
AcDbEntity
  8
0
  6
Continuous
 62
     7
370
    25
100
AcDbLine
 10
275.3053345646
 20
87.6714893617
 30
0.0
 11
363.3053345646
 21
87.6714893617
 31
0.0
  0
LINE
  5
AC
330
1F
100
AcDbEntity
  8
0
  6
Continuous
 62
     7
370
    25
100
AcDbLine
 10
363.3053345646
 20
150.6714893617
 30
0.0
 11
275.3053345646
 21
150.6714893617
 31
0.0
  0
LINE
  5
AD
330
1F
100
AcDbEntity
  8
0
  6
Continuous
 62
     7
370
    25
100
AcDbLine
 10
243.3053345646
 20
119.1714893617
 30
0.0
 11
243.3053345646
 21
169.1714893617
 31
0.0
  0
LINE
  5
AE
330
1F
100
AcDbEntity
  8
0
  6
Continuous
 62
     7
370
    25
100
AcDbLine
 10
243.3053345646
 20
69.1714893617
 30
0.0
 11
243.3053345646
 21
119.1714893617
 31
0.0
  0
LINE
  5
AF
330
1F
100
AcDbEntity
  8
0
  6
Continuous
 62
     7
370
    25
100
AcDbLine
 10
257.3053345646
 20
119.1714893617
 30
0.0
 11
257.3053345646
 21
169.1714893617
 31
0.0
  0
LINE
  5
B0
330
1F
100
AcDbEntity
  8
0
  6
Continuous
 62
     7
370
    25
100
AcDbLine
 10
257.3053345646
 20
69.1714893617
 30
0.0
 11
257.3053345646
 21
119.1714893617
 31
0.0
  0
LINE
  5
B1
330
1F
100
AcDbEntity
  8
0
  6
Continuous
 62
     7
370
    25
100
AcDbLine
 10
275.3053345646
 20
119.1714893617
 30
0.0
 11
275.3053345646
 21
150.6714893617
 31
0.0
  0
LINE
  5
B2
330
1F
100
AcDbEntity
  8
0
  6
Continuous
 62
     7
370
    25
100
AcDbLine
 10
275.3053345646
 20
87.6714893617
 30
0.0
 11
275.3053345646
 21
119.1714893617
 31
0.0
  0
LINE
  5
B3
330
1F
100
AcDbEntity
  8
0
  6
Continuous
 62
     7
370
    25
100
AcDbLine
 10
363.3053345646
 20
119.1714893617
 30
0.0
 11
363.3053345646
 21
150.6714893617
 31
0.0
  0
LINE
  5
B4
330
1F
100
AcDbEntity
  8
0
  6
Continuous
 62
     7
370
    25
100
AcDbLine
 10
363.3053345646
 20
87.6714893617
 30
0.0
 11
363.3053345646
 21
119.1714893617
 31
0.0
  0
LINE
  5
B5
330
1F
100
AcDbEntity
  8
0
  6
Continuous
 62
     7
370
    25
100
AcDbLine
 10
92.9934680851
 20
12.9873504774
 30
0.0
 11
92.9934680851
 21
-1.0126495226
 31
0.0
  0
LINE
  5
B6
330
1F
100
AcDbEntity
  8
0
  6
Continuous
 62
     7
370
    25
100
AcDbLine
 10
192.9934680851
 20
-1.0126495226
 30
0.0
 11
192.9934680851
 21
12.9873504774
 31
0.0
  0
LINE
  5
B7
330
1F
100
AcDbEntity
  8
0
  6
Continuous
 62
     7
370
    25
100
AcDbLine
 10
103.9934680851
 20
-1.0126495226
 30
0.0
 11
111.4934680851
 21
-19.0126495226
 31
0.0
  0
LINE
  5
B8
330
1F
100
AcDbEntity
  8
0
  6
Continuous
 62
     7
370
    25
100
AcDbLine
 10
174.4934680851
 20
-19.0126495226
 30
0.0
 11
181.9934680851
 21
-1.0126495226
 31
0.0
  0
LINE
  5
B9
330
1F
100
AcDbEntity
  8
0
  6
Continuous
 62
     7
370
    25
100
AcDbLine
 10
111.4934680851
 20
-19.0126495226
 30
0.0
 11
111.4934680851
 21
-107.0126495226
 31
0.0
  0
LINE
  5
BA
330
1F
100
AcDbEntity
  8
0
  6
Continuous
 62
     7
370
    25
100
AcDbLine
 10
174.4934680851
 20
-107.0126495226
 30
0.0
 11
174.4934680851
 21
-19.0126495226
 31
0.0
  0
LINE
  5
BB
330
1F
100
AcDbEntity
  8
0
  6
Continuous
 62
     7
370
    25
100
AcDbLine
 10
92.9934680851
 20
12.9873504774
 30
0.0
 11
192.9934680851
 21
12.9873504774
 31
0.0
  0
LINE
  5
BC
330
1F
100
AcDbEntity
  8
0
  6
Continuous
 62
     7
370
    25
100
AcDbLine
 10
92.9934680851
 20
-1.0126495226
 30
0.0
 11
192.9934680851
 21
-1.0126495226
 31
0.0
  0
LINE
  5
BD
330
1F
100
AcDbEntity
  8
0
  6
Continuous
 62
     7
370
    25
100
AcDbLine
 10
111.4934680851
 20
-19.0126495226
 30
0.0
 11
174.4934680851
 21
-19.0126495226
 31
0.0
  0
LINE
  5
BE
330
1F
100
AcDbEntity
  8
0
  6
Continuous
 62
     7
370
    25
100
AcDbLine
 10
111.4934680851
 20
-107.0126495226
 30
0.0
 11
174.4934680851
 21
-107.0126495226
 31
0.0
  0
LINE
  5
BF
330
1F
100
AcDbEntity
  8
0
  6
Continuous
 62
     7
370
    25
100
AcDbLine
 10
331.6930727706
 20
-4.3741173149
 30
0.0
 11
269.4676760262
 21
31.5478396053
 31
0.0
  0
LINE
  5
C0
330
1F
100
AcDbEntity
  8
0
  6
Continuous
 62
     7
370
    25
100
AcDbLine
 10
237.9702359482
 20
-23.0132387247
 30
0.0
 11
300.1956326926
 21
-58.9351956449
 31
0.0
  0
LINE
  5
C1
330
1F
100
AcDbEntity
  8
0
  6
Continuous
 62
     7
370
    25
100
AcDbLine
 10
363.5697380455
 20
-1.41474315
 30
0.0
 11
353.6702431089
 21
4.3001136328
 31
0.0
  0
LINE
  5
C2
330
1F
100
AcDbEntity
  8
0
  6
Continuous
 62
     7
370
    25
100
AcDbLine
 10
303.6743064771
 20
-82.3047726053
 30
0.0
 11
313.5738014137
 21
-88.0196293881
 31
0.0
  0
LINE
  5
C3
330
1F
100
AcDbEntity
  8
0
  6
Continuous
 62
     7
370
    25
100
AcDbLine
 10
341.5588756556
 20
-3.4087184282
 30
0.0
 11
329.3198209303
 21
-3.0040681897
 31
0.0
  0
LINE
  5
C4
330
1F
100
AcDbEntity
  8
0
  6
Continuous
 62
     7
370
    25
100
AcDbLine
 10
297.8223808522
 20
-57.5651465197
 30
0.0
 11
304.293321209
 21
-67.9615465353
 31
0.0
  0
LWPOLYLINE
  5
C5
330
1F
100
AcDbEntity
  8
0
  6
Continuous
 62
     7
370
    25
100
AcDbPolyline
 90
       51
 70
   128
 43
0.0
 10
331.6930727706
 20
-4.3741173149
 10
332.5442714351
 20
-4.9217382085
 10
333.4527921521
 20
-5.6475602694
 10
334.290812563
 20
-6.4781037277
 10
335.0549582554
 20
-7.410024278
 10
335.7421522843
 20
-8.4395694052
 10
336.349627562
 20
-9.5625934945
 10
336.8749379999
 20
-10.7745745241
 10
337.3159683581
 20
-12.0706322743
 10
337.6709427633
 20
-13.4455479778
 10
337.9384318586
 20
-14.8937853346
 10
338.11735856
 20
-16.4095128038
 10
338.2070023927
 20
-17.9866270858
 10
338.2070023927
 20
-19.6187776983
 10
338.11735856
 20
-21.2993925465
 10
337.9384318586
 20
-23.0217043878
 10
337.6709427633
 20
-24.7787780803
 10
337.3159683581
 20
-26.5635385082
 10
336.8749379999
 20
-28.3687990714
 10
336.349627562
 20
-30.1872906226
 10
335.7421522843
 20
-32.0116907382
 10
335.0549582554
 20
-33.8346532029
 10
334.290812563
 20
-35.6488375902
 10
333.4527921521
 20
-37.4469388199
 10
332.5442714351
 20
-39.2217165729
 10
331.5689087044
 20
-40.9660244457
 10
330.5306314013
 20
-42.6728387261
 10
329.4336203022
 20
-44.3352866754
 10
328.2822926836
 20
-45.9466742024
 10
327.0812845353
 20
-47.5005128183
 10
325.8354318934
 20
-48.9905457635
 10
324.5497513667
 20
-50.4107732011
 10
323.2294199369
 20
-51.7554763765
 10
321.8797541127
 20
-53.0192406447
 10
320.506188522
 20
-54.1969772729
 10
319.1142540286
 20
-55.2839439315
 10
317.7095554615
 20
-56.2757637893
 10
316.2977490461
 20
-57.1684431379
 10
314.8845196284
 20
-57.9583874725
 10
313.4755577845
 20
-58.6424159661
 10
312.0765369066
 20
-59.2177742774
 10
310.6930903579
 20
-59.6821456416
 10
309.3307887893
 20
-60.0336601991
 10
307.9951177085
 20
-60.2709025248
 10
306.6914553915
 20
-60.3929173276
 10
305.4250512264
 20
-60.3992132969
 10
304.2010045757
 20
-60.2897650812
 10
303.0242442433
 20
-60.0650133897
 10
301.8995086277
 20
-59.7258632182
 10
300.8313266423
 20
-59.2736802047
 10
300.1956326926
 20
-58.9351956449
  0
LWPOLYLINE
  5
C6
330
1F
100
AcDbEntity
  8
0
  6
Continuous
 62
     7
370
    25
100
AcDbPolyline
 90
      100
 70
   128
 43
0.0
 10
231.4450923798
 20
-8.5911273209
 10
231.4899368735
 20
-6.933910252
 10
231.6242897815
 20
-5.231589861
 10
231.8476101122
 20
-3.4910207914
 10
232.1589986334
 20
-1.7192117004
 10
232.5572014933
 20
0.0767029621
 10
233.0406152697
 20
1.8894916815
 10
233.6072934259
 20
3.7118549976
 10
234.2549541489
 20
5.5364548965
 10
234.9809895377
 20
7.3559443583
 10
235.7824761039
 20
9.1629969412
 10
236.656186544
 20
10.9503362821
 10
237.5986027344
 20
12.7107653965
 10
238.6059298978
 20
14.4371956576
 10
239.6741118833
 20
16.12267534
 10
240.7988474989
 20
17.760417612
 10
241.9756078313
 20
19.3438278634
 10
243.199654482
 20
20.8665302601
 10
244.4660586471
 20
22.3223934169
 10
245.7697209641
 20
23.7055550867
 10
247.1053920449
 20
25.0104457656
 10
248.4676936134
 20
26.2318111195
 10
249.8511401622
 20
27.3647331411
 10
251.2501610401
 20
28.4046499533
 10
252.659122884
 20
29.3473741782
 10
254.0723523016
 20
30.189109798
 10
255.4841587171
 20
30.9264674404
 10
256.8888572842
 20
31.5564780265
 10
258.2807917776
 20
32.0766047261
 10
259.6543573683
 20
32.4847531724
 10
261.0040231925
 20
32.7792798957
 10
262.3243546223
 20
32.9589989408
 10
263.610035149
 20
33.0231866427
 10
264.8558877909
 20
32.97158454
 10
266.0568959391
 20
32.8044004163
 10
267.2082235578
 20
32.5223074629
 10
268.3052346569
 20
32.1264415687
 10
269.34351196
 20
31.6183967459
 10
270.3188746907
 20
31.0002187117
 10
271.2273954076
 20
30.2743966508
 10
272.0654158185
 20
29.4438531925
 10
272.829561511
 20
28.5119326422
 10
273.5167555399
 20
27.482387515
 10
274.1242308176
 20
26.3593634257
 10
274.6495412554
 20
25.1473823961
 10
275.0905716137
 20
23.8513246459
 10
275.4455460188
 20
22.4764089424
 10
275.7130351142
 20
21.0281715856
 10
275.8919618156
 20
19.5124441164
 10
275.9816056483
 20
17.9353298344
 10
275.9816056483
 20
16.3031792219
 10
275.8919618156
 20
14.6225643737
 10
275.7130351142
 20
12.9002525324
 10
275.4455460188
 20
11.1431788399
 10
275.0905716137
 20
9.358418412
 10
274.6495412554
 20
7.5531578488
 10
274.1242308176
 20
5.7346662976
 10
273.5167555399
 20
3.910266182
 10
272.829561511
 20
2.0873037173
 10
272.0654158185
 20
0.27311933
 10
271.2273954076
 20
-1.5249818997
 10
270.3188746907
 20
-3.2997596527
 10
269.34351196
 20
-5.0440675255
 10
268.3052346569
 20
-6.7508818059
 10
267.2082235578
 20
-8.4133297552
 10
266.0568959391
 20
-10.0247172822
 10
264.8558877909
 20
-11.5785558981
 10
263.610035149
 20
-13.0685888433
 10
262.3243546223
 20
-14.4888162809
 10
261.0040231925
 20
-15.8335194563
 10
259.6543573683
 20
-17.0972837245
 10
258.2807917776
 20
-18.2750203527
 10
256.8888572842
 20
-19.3619870113
 10
255.4841587171
 20
-20.3538068691
 10
254.0723523016
 20
-21.2464862177
 10
252.659122884
 20
-22.0364305523
 10
251.2501610401
 20
-22.7204590459
 10
249.8511401622
 20
-23.2958173572
 10
248.4676936134
 20
-23.7601887214
 10
247.1053920449
 20
-24.1117032789
 10
245.7697209641
 20
-24.3489456046
 10
244.4660586471
 20
-24.4709604074
 10
243.199654482
 20
-24.4772563767
 10
241.9756078313
 20
-24.367808161
 10
240.7988474989
 20
-24.1430564695
 10
239.6741118833
 20
-23.803906298
 10
238.6059298978
 20
-23.3517232845
 10
237.5986027344
 20
-22.7883282104
 10
236.656186544
 20
-22.1159896689
 10
235.7824761039
 20
-21.3374149299
 10
234.9809895377
 20
-20.4557390392
 10
234.2549541489
 20
-19.4745121943
 10
233.6072934259
 20
-18.3976854494
 10
233.0406152697
 20
-17.2295948059
 10
232.5572014933
 20
-15.9749437524
 10
232.1589986334
 20
-14.6387843258
 10
231.8476101122
 20
-13.2264967688
 10
231.6242897815
 20
-11.7437678647
 10
231.4899368735
 20
-10.1965680395
 10
231.4450923798
 20
-8.5911273209
  0
LWPOLYLINE
  5
C7
330
1F
100
AcDbEntity
  8
0
  6
Continuous
 62
     7
370
    25
100
AcDbPolyline
 90
       93
 70
   128
 43
0.0
 10
234.1320981483
 20
-7.0399519084
 10
234.1777596348
 20
-5.4700728709
 10
234.3145311992
 20
-3.854793704
 10
234.5417751495
 20
-2.2016455849
 10
234.8584319693
 20
-0.5183362532
 10
235.2630252585
 20
1.1872859258
 10
235.7536686164
 20
2.9072685543
 10
236.3280744371
 20
4.6335922793
 10
236.9835645756
 20
6.3582081827
 10
237.7170828342
 20
8.0730753089
 10
238.5252092122
 20
9.7701981559
 10
239.4041758513
 20
11.4416639535
 10
240.3498846035
 20
13.0796795566
 10
241.3579261379
 20
14.6766077803
 10
242.4236004995
 20
16.225003008
 10
243.5419390225
 20
17.7176459065
 10
244.7077274965
 20
19.1475770854
 10
245.9155304775
 20
20.5081295456
 10
247.1597166305
 20
21.7929597635
 10
248.4344849852
 20
22.9960772674
 10
249.7338919831
 20
24.1118725682
 10
251.0518791889
 20
25.1351433131
 10
252.382301538
 20
26.0611185416
 10
253.7189559872
 20
26.8854809296
 10
255.0556104363
 20
27.6043869192
 10
256.3860327854
 20
28.2144846388
 10
257.7040199913
 20
28.7129295311
 10
259.0034269892
 20
29.0973976161
 10
260.2781953439
 20
29.366096326
 10
261.5223814969
 20
29.5177728635
 10
262.7301844779
 20
29.5517200423
 10
263.8959729519
 20
29.4677795853
 10
265.0143114749
 20
29.2663428614
 10
266.0799858365
 20
28.9483490618
 10
267.0880273709
 20
28.5152808202
 10
268.033736123
 20
27.9691573008
 10
268.9127027622
 20
27.3125247834
 10
269.7208291402
 20
26.5484447921
 10
270.4543473988
 20
25.6804798204
 10
271.1098375373
 20
24.7126767217
 10
271.684243358
 20
23.6495478408
 10
272.1748867159
 20
22.4960499753
 10
272.5794800051
 20
21.2575612648
 10
272.8961368249
 20
19.9398561152
 10
273.1233807752
 20
18.5490782764
 10
273.2601523396
 20
17.0917121965
 10
273.3058138261
 20
15.5745527891
 10
273.2601523396
 20
14.0046737515
 10
273.1233807752
 20
12.3893945847
 10
272.8961368249
 20
10.7362464656
 10
272.5794800051
 20
9.0529371339
 10
272.1748867159
 20
7.3473149548
 10
271.684243358
 20
5.6273323263
 10
271.1098375373
 20
3.9010086013
 10
270.4543473988
 20
2.176392698
 10
269.7208291402
 20
0.4615255717
 10
268.9127027622
 20
-1.2355972752
 10
268.033736123
 20
-2.9070630728
 10
267.0880273709
 20
-4.5450786759
 10
266.0799858365
 20
-6.1420068996
 10
265.0143114749
 20
-7.6904021273
 10
263.8959729519
 20
-9.1830450258
 10
262.7301844779
 20
-10.6129762048
 10
261.5223814969
 20
-11.973528665
 10
260.2781953439
 20
-13.2583588828
 10
259.0034269892
 20
-14.4614763868
 10
257.7040199913
 20
-15.5772716875
 10
256.3860327854
 20
-16.6005424324
 10
255.0556104363
 20
-17.5265176609
 10
253.7189559872
 20
-18.3508800489
 10
252.382301538
 20
-19.0697860385
 10
251.0518791889
 20
-19.6798837581
 10
249.7338919831
 20
-20.1783286505
 10
248.4344849852
 20
-20.5627967354
 10
247.1597166305
 20
-20.8314954454
 10
245.9155304775
 20
-20.9831719828
 10
244.7077274965
 20
-21.0171191617
 10
243.5419390225
 20
-20.9331787046
 10
242.4236004995
 20
-20.7317419808
 10
241.3579261379
 20
-20.4137481811
 10
240.3498846035
 20
-19.9806799395
 10
239.4041758513
 20
-19.4345564201
 10
238.5252092122
 20
-18.7779239028
 10
237.7170828342
 20
-18.0138439114
 10
236.9835645756
 20
-17.1458789397
 10
236.3280744371
 20
-16.178075841
 10
235.7536686164
 20
-15.1149469602
 10
235.2630252585
 20
-13.9614490947
 10
234.8584319693
 20
-12.7229603841
 10
234.5417751495
 20
-11.4052552346
 10
234.3145311992
 20
-10.0144773957
 10
234.1777596348
 20
-8.5571113159
 10
234.1320981483
 20
-7.0399519084
  0
LWPOLYLINE
  5
C8
330
1F
100
AcDbEntity
  8
0
  6
Continuous
 62
     7
370
    25
100
AcDbPolyline
 90
       64
 70
   128
 43
0.0
 10
363.5697380455
 20
-1.41474315
 10
364.1970644698
 20
-1.7955381237
 10
365.3979204214
 20
-2.637168318
 10
366.5299140289
 20
-3.5868173148
 10
367.590139481
 20
-4.6420473789
 10
368.5758751941
 20
-5.8001497497
 10
369.4845907987
 20
-7.0581515952
 10
370.3139536351
 20
-8.4128236425
 10
371.0618347406
 20
-9.860688468
 10
371.7263143152
 20
-11.3980294234
 10
372.3056866494
 20
-13.0209001766
 10
372.7984645027
 20
-14.7251348416
 10
373.2033829213
 20
-16.5063586725
 10
373.5194024856
 20
-18.3599992932
 10
373.7457119778
 20
-20.2812984349
 10
373.8817304648
 20
-22.2653241501
 10
373.9271087889
 20
-24.3069834735
 10
373.8817304648
 20
-26.4010354946
 10
373.7457119778
 20
-28.5421048121
 10
373.5194024856
 20
-30.7246953318
 10
373.2033829213
 20
-32.943204375
 10
372.7984645027
 20
-35.1919370608
 10
372.3056866494
 20
-37.4651209248
 10
371.7263143152
 20
-39.7569207364
 10
371.0618347406
 20
-42.0614534786
 10
370.3139536351
 20
-44.3728034487
 10
369.4845907987
 20
-46.6850374446
 10
368.5758751941
 20
-48.9922199948
 10
367.590139481
 20
-51.2884285947
 10
366.5299140289
 20
-53.5677689098
 10
365.3979204214
 20
-55.8243899062
 10
364.1970644698
 20
-58.0524988701
 10
362.9304287542
 20
-60.2463762779
 10
361.6012647101
 20
-62.4003904776
 10
360.2129842828
 20
-64.5090121458
 10
358.7691511681
 20
-66.5668284808
 10
357.2734716649
 20
-68.5685570975
 10
355.729785161
 20
-70.5090595875
 10
354.1420542776
 20
-72.3833547085
 10
352.5143546971
 20
-74.186631172
 10
350.850864701
 20
-75.914259993
 10
349.1558544442
 20
-77.5618063733
 10
347.4336749937
 20
-79.1250410848
 10
345.6887471595
 20
-80.5999513264
 10
343.9255501463
 20
-81.9827510248
 10
342.1486100555
 20
-83.2698905529
 10
340.3624882669
 20
-84.4580658421
 10
338.5717697296
 20
-85.5442268633
 10
336.7810511922
 20
-86.5255854569
 10
334.9949294036
 20
-87.3996224894
 10
333.2179893129
 20
-88.1640943203
 10
331.4547922997
 20
-88.8170385613
 10
329.7098644655
 20
-89.356779114
 10
327.987685015
 20
-89.7819304721
 10
326.2926747582
 20
-90.0914012781
 10
324.629184762
 20
-90.284397125
 10
323.0014851815
 20
-90.3604225951
 10
321.4137542981
 20
-90.3192825322
 10
319.8700677943
 20
-90.1610825422
 10
318.3743882911
 20
-89.8862287222
 10
316.9305551764
 20
-89.4954266181
 10
315.542274749
 20
-88.9896794133
 10
314.213110705
 20
-88.3702853534
 10
313.5738014137
 20
-88.0196293881
  0
ARC
  5
C9
330
1F
100
AcDbEntity
  8
0
  6
Continuous
 62
     7
370
    25
100
AcDbCircle
 10
344.7302430647
 20
-59.492592063
 30
0.0
 40
51.41336966476975
100
AcDbArc
 50
175.069762835
 51
179.9107802221
  0
LWPOLYLINE
  5
CA
330
1F
100
AcDbEntity
  8
0
  6
Continuous
 62
     7
370
    25
100
AcDbPolyline
 90
       98
 70
   128
 43
0.0
 10
325.0045388489
 20
-0.51290887
 10
325.095434467
 20
-0.4496252024
 10
326.8815562556
 20
0.7385500868
 10
328.672274793
 20
1.824711108
 10
330.4629933303
 20
2.8060697016
 10
332.2491151189
 20
3.6801067341
 10
334.0260552096
 20
4.444578565
 10
335.7892522228
 20
5.097522806
 10
337.5341800571
 20
5.6372633587
 10
339.2563595075
 20
6.0624147168
 10
340.9513697644
 20
6.3718855228
 10
342.6148597605
 20
6.5648813697
 10
344.242559341
 20
6.6409068398
 10
345.8302902244
 20
6.5997667769
 10
347.3739767283
 20
6.4415667869
 10
348.8696562315
 20
6.166712967
 10
350.3134893462
 20
5.7759108628
 10
351.7017697735
 20
5.270163658
 10
353.0309338175
 20
4.6507695982
 10
354.2975695332
 20
3.9193186591
 10
355.4984254848
 20
3.0776884648
 10
356.6304190923
 20
2.1280394679
 10
357.6906445443
 20
1.0728094039
 10
358.6763802574
 20
-0.085292967
 10
359.5850958621
 20
-1.3432948124
 10
360.4144586985
 20
-2.6979668597
 10
361.162339804
 20
-4.1458316852
 10
361.8268193786
 20
-5.6831726407
 10
362.4061917128
 20
-7.3060433939
 10
362.8989695661
 20
-9.0102780589
 10
363.3038879847
 20
-10.7915018897
 10
363.619907549
 20
-12.6451425105
 10
363.8462170412
 20
-14.5664416521
 10
363.9822355281
 20
-16.5504673674
 10
364.0276138523
 20
-18.5921266907
 10
363.9822355281
 20
-20.6861787119
 10
363.8462170412
 20
-22.8272480294
 10
363.619907549
 20
-25.009838549
 10
363.3038879847
 20
-27.2283475922
 10
362.8989695661
 20
-29.477080278
 10
362.4061917128
 20
-31.750264142
 10
361.8268193786
 20
-34.0420639537
 10
361.162339804
 20
-36.3465966958
 10
360.4144586985
 20
-38.657946666
 10
359.5850958621
 20
-40.9701806619
 10
358.6763802574
 20
-43.277363212
 10
357.6906445443
 20
-45.5735718119
 10
356.6304190923
 20
-47.852912127
 10
355.4984254848
 20
-50.1095331234
 10
354.2975695332
 20
-52.3376420874
 10
353.0309338175
 20
-54.5315194951
 10
351.7017697735
 20
-56.6855336949
 10
350.3134893462
 20
-58.794155363
 10
348.8696562315
 20
-60.851971698
 10
347.3739767283
 20
-62.8537003148
 10
345.8302902244
 20
-64.7942028047
 10
344.242559341
 20
-66.6684979258
 10
342.6148597605
 20
-68.4717743892
 10
340.9513697644
 20
-70.1994032103
 10
339.2563595075
 20
-71.8469495905
 10
337.5341800571
 20
-73.410184302
 10
335.7892522228
 20
-74.8850945436
 10
334.0260552096
 20
-76.267894242
 10
332.2491151189
 20
-77.5550337701
 10
330.4629933303
 20
-78.7432090593
 10
328.672274793
 20
-79.8293700806
 10
326.8815562556
 20
-80.8107286741
 10
325.095434467
 20
-81.6847657066
 10
323.3184943763
 20
-82.4492375375
 10
321.5552973631
 20
-83.1021817786
 10
319.8103695289
 20
-83.6419223312
 10
318.0881900784
 20
-84.0670736893
 10
316.3931798216
 20
-84.3765444953
 10
314.7296898254
 20
-84.5695403422
 10
313.1019902449
 20
-84.6455658123
 10
311.5142593615
 20
-84.6044257494
 10
309.9705728577
 20
-84.4462257594
 10
308.4748933545
 20
-84.1713719395
 10
307.0310602398
 20
-83.7805698354
 10
305.6427798124
 20
-83.2748226305
 10
304.3136157684
 20
-82.6554285707
 10
303.0469800527
 20
-81.9239776316
 10
301.8461241011
 20
-81.0823474373
 10
300.7141304936
 20
-80.1326984405
 10
299.6539050416
 20
-79.0774683764
 10
298.6681693285
 20
-77.9193660056
 10
297.7594537238
 20
-76.6613641601
 10
296.9300908874
 20
-75.3066921128
 10
296.1822097819
 20
-73.8588272873
 10
295.5177302073
 20
-72.3214863319
 10
294.9383578731
 20
-70.6986155787
 10
294.4455800199
 20
-68.9943809137
 10
294.0406616012
 20
-67.2131570828
 10
293.7246420369
 20
-65.3595164621
 10
293.4983325447
 20
-63.4382173204
 10
293.3623140578
 20
-61.4541916052
 10
293.3169357336
 20
-59.4125322818
 10
293.3169357336
 20
-59.4125322818
  0
LWPOLYLINE
  5
CB
330
1F
100
AcDbEntity
  8
0
  6
Continuous
 62
     7
370
    25
100
AcDbPolyline
 90
       67
 70
   128
 43
0.0
 10
341.5588756556
 20
-3.4087184282
 10
342.9130525226
 20
-3.5107901281
 10
344.2380182715
 20
-3.7291888222
 10
345.5122118007
 20
-4.0626411695
 10
346.7314769555
 20
-4.5100595178
 10
347.8918367465
 20
-5.0699844814
 10
348.9895063213
 20
-5.7405897016
 10
350.0209053097
 20
-6.5196878034
 10
350.9826695029
 20
-7.4047375307
 10
351.8716618257
 20
-8.3928520354
 10
352.6849825701
 20
-9.4808082933
 10
353.4199788528
 20
-10.6650576172
 10
354.0742532687
 20
-11.941737232
 10
354.6456717107
 20
-13.3066828741
 10
355.1323703306
 20
-14.7554423746
 10
355.5327616186
 20
-16.283290181
 10
355.8455395816
 20
-17.8852427715
 10
356.0696840029
 20
-19.5560749096
 10
356.20446377
 20
-21.2903366881
 10
356.2494392592
 20
-23.0823713057
 10
356.20446377
 20
-24.9263335179
 10
356.0696840029
 20
-26.8162087032
 10
355.8455395816
 20
-28.7458324816
 10
355.5327616186
 20
-30.7089108214
 10
355.1323703306
 20
-32.699040569
 10
354.6456717107
 20
-34.709730335
 10
354.0742532687
 20
-36.7344216671
 10
353.4199788528
 20
-38.7665104432
 10
352.6849825701
 20
-40.799368412
 10
351.8716618257
 20
-42.8263648133
 10
350.9826695029
 20
-44.8408880062
 10
350.0209053097
 20
-46.8363670348
 10
348.9895063213
 20
-48.8062930612
 10
347.8918367465
 20
-50.7442405962
 10
346.7314769555
 20
-52.6438884578
 10
345.5122118007
 20
-54.4990403894
 10
344.2380182715
 20
-56.3036452711
 10
342.9130525226
 20
-58.0518168568
 10
341.5416363166
 20
-59.7378529742
 10
340.1282429283
 20
-61.3562541239
 10
338.6774825531
 20
-62.9017414177
 10
337.1940872697
 20
-64.3692737974
 10
335.6828956054
 20
-65.7540644773
 10
334.1488367531
 20
-67.051596558
 10
332.596914494
 20
-68.2576377597
 10
331.032190876
 20
-69.3682542266
 10
329.4597697022
 20
-70.3798233586
 10
327.8847798837
 20
-71.2890456275
 10
326.3123587099
 20
-72.0929553392
 10
324.7476350919
 20
-72.7889303073
 10
323.1957128328
 20
-73.3747004061
 10
321.6616539806
 20
-73.8483549754
 10
320.1504623162
 20
-74.2083490524
 10
318.6670670329
 20
-74.4535084112
 10
317.2163066577
 20
-74.583033393
 10
315.8029132693
 20
-74.5965015141
 10
314.4314970634
 20
-74.4938688444
 10
313.1065313144
 20
-74.2754701504
 10
311.8323377853
 20
-73.9420178031
 10
310.6130726305
 20
-73.4945994548
 10
309.4527128394
 20
-72.9346744911
 10
308.3550432647
 20
-72.264069271
 10
307.3236442762
 20
-71.4849711692
 10
306.3618800831
 20
-70.5999214418
 10
305.4728877602
 20
-69.6118069371
 10
304.6595670159
 20
-68.5238506792
 10
304.293321209
 20
-67.9615465353
  0
ENDSEC
  0
SECTION
  2
OBJECTS
  0
DICTIONARY
  5
C
330
0
100
AcDbDictionary
281
     1
  3
ACAD_GROUP
350
D
  3
ACAD_LAYOUT
350
1A
  3
ACAD_MLINESTYLE
350
17
  3
ACAD_PLOTSETTINGS
350
19
  3
ACAD_PLOTSTYLENAME
350
E
  3
ACAD_SCALELIST
350
47
  0
DICTIONARY
  5
D
102
{ACAD_REACTORS
330
C
102
}
330
C
100
AcDbDictionary
281
     1
  0
DICTIONARY
  5
1A
102
{ACAD_REACTORS
330
C
102
}
330
C
100
AcDbDictionary
281
     1
  3
Layout1
350
1E
  3
Layout2
350
26
  3
Model
350
22
  0
DICTIONARY
  5
17
102
{ACAD_REACTORS
330
C
102
}
330
C
100
AcDbDictionary
281
     1
  3
Standard
350
18
  0
DICTIONARY
  5
19
102
{ACAD_REACTORS
330
C
102
}
330
C
100
AcDbDictionary
281
     1
  0
ACDBDICTIONARYWDFLT
  5
E
102
{ACAD_REACTORS
330
C
102
}
330
C
100
AcDbDictionary
281
     1
  3
Normal
350
F
100
AcDbDictionaryWithDefault
340
F
  0
DICTIONARY
  5
47
102
{ACAD_REACTORS
330
C
102
}
330
C
100
AcDbDictionary
281
     1
  3
A0
350
48
  3
A1
350
49
  3
A2
350
4A
  3
A3
350
4B
  3
A4
350
4C
  3
A5
350
4D
  3
A6
350
4E
  3
A7
350
4F
  3
A8
350
50
  3
A9
350
51
  3
B0
350
52
  3
B1
350
53
  3
B2
350
54
  3
B3
350
55
  3
B4
350
56
  3
B5
350
57
  3
B6
350
58
  3
B7
350
59
  3
B8
350
5A
  3
B9
350
5B
  3
C0
350
5C
  3
C1
350
5D
  3
C2
350
5E
  3
C3
350
5F
  3
C4
350
60
  3
C5
350
61
  3
C6
350
62
  3
C7
350
63
  3
C8
350
64
  3
C9
350
65
  3
D0
350
66
  3
D1
350
67
  3
D2
350
68
  0
LAYOUT
  5
1E
102
{ACAD_REACTORS
330
1A
102
}
330
1A
100
AcDbPlotSettings
  1

  2
none_device
  4

  6

 40
0.0
 41
0.0
 42
0.0
 43
0.0
 44
0.0
 45
0.0
 46
0.0
 47
0.0
 48
0.0
 49
0.0
140
0.0
141
0.0
142
1.0
143
1.0
 70
   688
 72
     1
 73
     0
 74
     5
  7

 75
    16
147
1.0
148
0.0
149
0.0
100
AcDbLayout
  1
Layout1
 70
     1
 71
     1
 10
0.0
 20
0.0
 11
420.0
 21
297.0
 12
0.0
 22
0.0
 32
0.0
 14
1.0000000000E+20
 24
1.0000000000E+20
 34
1.0000000000E+20
 15
-1.0000000000E+20
 25
-1.0000000000E+20
 35
-1.0000000000E+20
146
0.0
 13
0.0
 23
0.0
 33
0.0
 16
1.0
 26
0.0
 36
0.0
 17
0.0
 27
1.0
 37
0.0
 76
     0
330
1B
  0
LAYOUT
  5
26
102
{ACAD_REACTORS
330
1A
102
}
330
1A
100
AcDbPlotSettings
  1

  2
none_device
  4

  6

 40
0.0
 41
0.0
 42
0.0
 43
0.0
 44
0.0
 45
0.0
 46
0.0
 47
0.0
 48
0.0
 49
0.0
140
0.0
141
0.0
142
1.0
143
1.0
 70
   688
 72
     1
 73
     0
 74
     5
  7

 75
    16
147
1.0
148
0.0
149
0.0
100
AcDbLayout
  1
Layout2
 70
     1
 71
     2
 10
0.0
 20
0.0
 11
0.0
 21
0.0
 12
0.0
 22
0.0
 32
0.0
 14
0.0
 24
0.0
 34
0.0
 15
0.0
 25
0.0
 35
0.0
146
0.0
 13
0.0
 23
0.0
 33
0.0
 16
1.0
 26
0.0
 36
0.0
 17
0.0
 27
1.0
 37
0.0
 76
     0
330
23
  0
LAYOUT
  5
22
102
{ACAD_REACTORS
330
1A
102
}
330
1A
100
AcDbPlotSettings
  1

  2
none_device
  4
Letter_(8.50_x_11.00_Inches)
  6

 40
6.35
 41
6.35
 42
6.35000508
 43
6.35000508
 44
215.9
 45
279.4
 46
0.0
 47
0.0
 48
0.0
 49
0.0
140
0.0
141
0.0
142
1.0
143
1.0
 70
  1712
 72
     1
 73
     0
 74
     0
  7

 75
     0
147
1.0
148
0.0
149
0.0
100
AcDbLayout
  1
Model
 70
     1
 71
     0
 10
0.0
 20
0.0
 11
279.4
 21
215.9
 12
0.0
 22
0.0
 32
0.0
 14
0.0
 24
0.0
 34
0.0
 15
279.4
 25
215.9
 35
0.0
146
0.0
 13
0.0
 23
0.0
 33
0.0
 16
1.0
 26
0.0
 36
0.0
 17
0.0
 27
1.0
 37
0.0
 76
     0
330
1F
331
29
  0
MLINESTYLE
  5
18
102
{ACAD_REACTORS
330
17
102
}
330
17
100
AcDbMlineStyle
  2
Standard
 70
     0
  3

 62
   256
 51
90.0
 52
90.0
 71
     2
 49
0.5
 62
   256
  6
BYLAYER
 49
-0.5
 62
   256
  6
BYLAYER
  0
ACDBPLACEHOLDER
  5
F
102
{ACAD_REACTORS
330
E
102
}
330
E
  0
SCALE
  5
48
102
{ACAD_REACTORS
330
47
102
}
330
47
100
AcDbScale
 70
     0
300
1:1
140
1.0
141
1.0
290
     1
  0
SCALE
  5
49
102
{ACAD_REACTORS
330
47
102
}
330
47
100
AcDbScale
 70
     0
300
1:2
140
1.0
141
2.0
290
     0
  0
SCALE
  5
4A
102
{ACAD_REACTORS
330
47
102
}
330
47
100
AcDbScale
 70
     0
300
1:4
140
1.0
141
4.0
290
     0
  0
SCALE
  5
4B
102
{ACAD_REACTORS
330
47
102
}
330
47
100
AcDbScale
 70
     0
300
1:5
140
1.0
141
5.0
290
     0
  0
SCALE
  5
4C
102
{ACAD_REACTORS
330
47
102
}
330
47
100
AcDbScale
 70
     0
300
1:8
140
1.0
141
8.0
290
     0
  0
SCALE
  5
4D
102
{ACAD_REACTORS
330
47
102
}
330
47
100
AcDbScale
 70
     0
300
1:10
140
1.0
141
10.0
290
     0
  0
SCALE
  5
4E
102
{ACAD_REACTORS
330
47
102
}
330
47
100
AcDbScale
 70
     0
300
1:16
140
1.0
141
16.0
290
     0
  0
SCALE
  5
4F
102
{ACAD_REACTORS
330
47
102
}
330
47
100
AcDbScale
 70
     0
300
1:20
140
1.0
141
20.0
290
     0
  0
SCALE
  5
50
102
{ACAD_REACTORS
330
47
102
}
330
47
100
AcDbScale
 70
     0
300
1:30
140
1.0
141
30.0
290
     0
  0
SCALE
  5
51
102
{ACAD_REACTORS
330
47
102
}
330
47
100
AcDbScale
 70
     0
300
1:40
140
1.0
141
40.0
290
     0
  0
SCALE
  5
52
102
{ACAD_REACTORS
330
47
102
}
330
47
100
AcDbScale
 70
     0
300
1:50
140
1.0
141
50.0
290
     0
  0
SCALE
  5
53
102
{ACAD_REACTORS
330
47
102
}
330
47
100
AcDbScale
 70
     0
300
1:100
140
1.0
141
100.0
290
     0
  0
SCALE
  5
54
102
{ACAD_REACTORS
330
47
102
}
330
47
100
AcDbScale
 70
     0
300
2:1
140
2.0
141
1.0
290
     0
  0
SCALE
  5
55
102
{ACAD_REACTORS
330
47
102
}
330
47
100
AcDbScale
 70
     0
300
4:1
140
4.0
141
1.0
290
     0
  0
SCALE
  5
56
102
{ACAD_REACTORS
330
47
102
}
330
47
100
AcDbScale
 70
     0
300
8:1
140
8.0
141
1.0
290
     0
  0
SCALE
  5
57
102
{ACAD_REACTORS
330
47
102
}
330
47
100
AcDbScale
 70
     0
300
10:1
140
10.0
141
1.0
290
     0
  0
SCALE
  5
58
102
{ACAD_REACTORS
330
47
102
}
330
47
100
AcDbScale
 70
     0
300
100:1
140
100.0
141
1.0
290
     0
  0
SCALE
  5
59
102
{ACAD_REACTORS
330
47
102
}
330
47
100
AcDbScale
 70
     0
300
1/128" = 1'-0"
140
0.0078125
141
12.0
290
     0
  0
SCALE
  5
5A
102
{ACAD_REACTORS
330
47
102
}
330
47
100
AcDbScale
 70
     0
300
1/64" = 1'-0"
140
0.015625
141
12.0
290
     0
  0
SCALE
  5
5B
102
{ACAD_REACTORS
330
47
102
}
330
47
100
AcDbScale
 70
     0
300
1/32" = 1'-0"
140
0.03125
141
12.0
290
     0
  0
SCALE
  5
5C
102
{ACAD_REACTORS
330
47
102
}
330
47
100
AcDbScale
 70
     0
300
1/16" = 1'-0"
140
0.0625
141
12.0
290
     0
  0
SCALE
  5
5D
102
{ACAD_REACTORS
330
47
102
}
330
47
100
AcDbScale
 70
     0
300
3/32" = 1'-0"
140
0.09375
141
12.0
290
     0
  0
SCALE
  5
5E
102
{ACAD_REACTORS
330
47
102
}
330
47
100
AcDbScale
 70
     0
300
1/8" = 1'-0"
140
0.125
141
12.0
290
     0
  0
SCALE
  5
5F
102
{ACAD_REACTORS
330
47
102
}
330
47
100
AcDbScale
 70
     0
300
3/16" = 1'-0"
140
0.1875
141
12.0
290
     0
  0
SCALE
  5
60
102
{ACAD_REACTORS
330
47
102
}
330
47
100
AcDbScale
 70
     0
300
1/4" = 1'-0"
140
0.25
141
12.0
290
     0
  0
SCALE
  5
61
102
{ACAD_REACTORS
330
47
102
}
330
47
100
AcDbScale
 70
     0
300
3/8" = 1'-0"
140
0.375
141
12.0
290
     0
  0
SCALE
  5
62
102
{ACAD_REACTORS
330
47
102
}
330
47
100
AcDbScale
 70
     0
300
1/2" = 1'-0"
140
0.5
141
12.0
290
     0
  0
SCALE
  5
63
102
{ACAD_REACTORS
330
47
102
}
330
47
100
AcDbScale
 70
     0
300
3/4" = 1'-0"
140
0.75
141
12.0
290
     0
  0
SCALE
  5
64
102
{ACAD_REACTORS
330
47
102
}
330
47
100
AcDbScale
 70
     0
300
1" = 1'-0"
140
1.0
141
12.0
290
     0
  0
SCALE
  5
65
102
{ACAD_REACTORS
330
47
102
}
330
47
100
AcDbScale
 70
     0
300
1-1/2" = 1'-0"
140
1.5
141
12.0
290
     0
  0
SCALE
  5
66
102
{ACAD_REACTORS
330
47
102
}
330
47
100
AcDbScale
 70
     0
300
3" = 1'-0"
140
3.0
141
12.0
290
     0
  0
SCALE
  5
67
102
{ACAD_REACTORS
330
47
102
}
330
47
100
AcDbScale
 70
     0
300
6" = 1'-0"
140
6.0
141
12.0
290
     0
  0
SCALE
  5
68
102
{ACAD_REACTORS
330
47
102
}
330
47
100
AcDbScale
 70
     0
300
1'-0" = 1'-0"
140
12.0
141
12.0
290
     0
  0
ENDSEC
  0
EOF
